• Je préfère cette version car elle est plus rapprochée de la vraie chanson

    Par contre faut du courage et du temps moi j'y suis pas arrivée tout de suite !!


    5 commentaires
  • Vous pouvez faire l'intro pour tous le morceau !!!

    Pour ceux qui préfère en tablature :

    Intro :
    
         A        E         F#m            (2 x)
    
    e :-------------------------------------------------------------|II
    B :-------------------------------------------------------------|o-II
    G :-------------------------------------------------------------|II
    D :---7-----7-----9-----9-----4-----4-----4-----4---------------|II
    A :------7-----7-----7-----7----4-----4-----4-----4-/-----------|o-II
    E :-------------------------------------------------------------|II
    
    Couplets :
    
         A        E         F#m            (2 x)
    
    e :-------------------------------------------------------------|II
    B :-------------------------------------------------------------|o-II
    G :-------------------------------------------------------------|II
    D :---7-----7-----9-----9-----4-----4-----4-----4---------------|II
    A :------7-----7-----7-----7----4-----4-----4-----4-/-----------|o-II
    E :-------------------------------------------------------------|II
    
    
         Bm       F#m         C#m        E
    
    e :-------------------------------------------------------------|II
    B :-------------------------------------------------------------|II
    G :-------------------------------------------------------------|II
    D :---9-----9-----4-----4-----11----11------9-----9-------------|II
    A :------9-----9-----4-----4----11----11-----7-----7------------|II
    E :-------------------------------------------------------------|II
    
    A      E        F#m
    J'ai demandé à la lune
    A      E             F#m
    et le soleil ne le sait pas
    Bm                    F#m
    je lui ai montré mes brûlures
    C#m                     E
    et la lune s'est moquée de moi
               A     E             F#m
    et comme le ciel n'avait pas fière allure
    A         E          F#m
    et que je ne guérissais pas
    Bm                      F#m
    je me suis dit quelle infortune
    C#m                     E
    et la lune s'est moquée de moi
    
    J'ai demandé à la lune
    si tu voulais encore de moi
    elle m'a dit : « j'ai pas l'habitude
    de m'occuper de cas comme ça »
    et toi et moi on était tellement sûr
    et on se disait quelques fois
    que c'était juste une aventure
    et que ça ne durerait pas

    Pour les accords et les paroles je l'ai ai pris ici
    Si vous voulez plus de précision vous pouvez me demander
    par MP ou par commentaire

    12 commentaires


    Suivre le flux RSS des articles de cette rubrique
    Suivre le flux RSS des commentaires de cette rubrique